ISO-10303-21;
HEADER;
FILE_DESCRIPTION (( 'STEP AP203' ),
    '1' );
FILE_NAME ('BK7-LNPBSP-12.7-532.STEP',
    '2020-12-22T04:11:33',
    ( '' ),
    ( '' ),
    'SwSTEP 2.0',
    'SolidWorks 2020',
    '' );
FILE_SCHEMA (( 'CONFIG_CONTROL_DESIGN' ));
ENDSEC;

DATA;
#1 = SECURITY_CLASSIFICATION ( '', '', #90 ) ;
#2 = CC_DESIGN_PERSON_AND_ORGANIZATION_ASSIGNMENT ( #70, #78, ( #43 ) ) ;
#3 = APPROVAL_PERSON_ORGANIZATION ( #44, #106, #133 ) ;
#4 = ORIENTED_EDGE ( 'NONE', *, *, #171, .F. ) ;
#5 = VERTEX_POINT ( 'NONE', #126 ) ;
#6 = EDGE_CURVE ( 'NONE', #5, #162, #31, .T. ) ;
#7 = AXIS2_PLACEMENT_3D ( 'NONE', #27, #28, #96 ) ;
#8 = COORDINATED_UNIVERSAL_TIME_OFFSET ( 8, 0, .AHEAD. ) ;
#9 = DIRECTION ( 'NONE',  ( -1.000000000000000000, -0.000000000000000000, -0.000000000000000000 ) ) ;
#10 = DATE_AND_TIME ( #86, #12 ) ;
#11 = DIRECTION ( 'NONE',  ( 0.000000000000000000, 0.000000000000000000, 1.000000000000000000 ) ) ;
#12 = LOCAL_TIME ( 12, 11, 33.00000000000000000, #163 ) ;
#13 = CARTESIAN_POINT ( 'NONE',  ( -4.102566777143633281E-16, 0.000000000000000000, 6.349999999999999645 ) ) ;
#14 = CC_DESIGN_PERSON_AND_ORGANIZATION_ASSIGNMENT ( #150, #143, ( #24 ) ) ;
#15 = DATE_TIME_ROLE ( 'creation_date' ) ;
#16 = CC_DESIGN_APPROVAL ( #106, ( #127 ) ) ;
#17 = UNCERTAINTY_MEASURE_WITH_UNIT (LENGTH_MEASURE( 1.000000000000000082E-05 ), #58, 'distance_accuracy_value', 'NONE');
#18 = CIRCLE ( 'NONE', #157, 6.349999999999999645 ) ;
#19 = PERSON_AND_ORGANIZATION ( #34, #59 ) ;
#20 = APPROVAL_ROLE ( '' ) ;
#21 = CYLINDRICAL_SURFACE ( 'NONE', #93, 6.349999999999999645 ) ;
#22 = CARTESIAN_POINT ( 'NONE',  ( 0.000000000000000000, 0.000000000000000000, 0.000000000000000000 ) ) ;
#23 = DIRECTION ( 'NONE',  ( -1.000000000000000000, -0.000000000000000000, -0.000000000000000000 ) ) ;
#24 = PRODUCT_DEFINITION_FORMATION_WITH_SPECIFIED_SOURCE ( 'ANY', '', #43, .NOT_KNOWN. ) ;
#25 = COORDINATED_UNIVERSAL_TIME_OFFSET ( 8, 0, .AHEAD. ) ;
#26 = EDGE_CURVE ( 'NONE', #104, #141, #174, .T. ) ;
#27 = CARTESIAN_POINT ( 'NONE',  ( 0.000000000000000000, 0.000000000000000000, 0.000000000000000000 ) ) ;
#28 = DIRECTION ( 'NONE',  ( 0.000000000000000000, 0.000000000000000000, 1.000000000000000000 ) ) ;
#29 = LOCAL_TIME ( 12, 11, 33.00000000000000000, #8 ) ;
#30 = CC_DESIGN_DATE_AND_TIME_ASSIGNMENT ( #145, #129, ( #1 ) ) ;
#31 = CIRCLE ( 'NONE', #149, 6.349999999999999645 ) ;
#32 = ORIENTED_EDGE ( 'NONE', *, *, #6, .F. ) ;
#33 = ORIENTED_EDGE ( 'NONE', *, *, #50, .F. ) ;
#34 = PERSON ( 'UNSPECIFIED', 'UNSPECIFIED', 'UNSPECIFIED', ('UNSPECIFIED'), ('UNSPECIFIED'), ('UNSPECIFIED') ) ;
#35 = DATE_AND_TIME ( #76, #29 ) ;
#36 = SHAPE_DEFINITION_REPRESENTATION ( #82, #48 ) ;
#37 = CARTESIAN_POINT ( 'NONE',  ( -4.102566777143633281E-16, 0.000000000000000000, 0.000000000000000000 ) ) ;
#38 = APPLICATION_PROTOCOL_DEFINITION ( 'international standard', 'config_control_design', 1994, #158 ) ;
#39 = CARTESIAN_POINT ( 'NONE',  ( 0.000000000000000000, 0.000000000000000000, 6.349999999999999645 ) ) ;
#40 = PERSON_AND_ORGANIZATION_ROLE ( 'creator' ) ;
#41 = APPROVAL ( #56, 'UNSPECIFIED' ) ;
#42 = DIRECTION ( 'NONE',  ( -1.000000000000000000, -0.000000000000000000, -0.000000000000000000 ) ) ;
#43 = PRODUCT ( 'BK7-LNPBSP-12.7-532', 'BK7-LNPBSP-12.7-532', '', ( #136 ) ) ;
#44 = PERSON_AND_ORGANIZATION ( #34, #59 ) ;
#45 = LOCAL_TIME ( 12, 11, 33.00000000000000000, #60 ) ;
#46 = ADVANCED_FACE ( 'NONE', ( #117 ), #152, .T. ) ;
#47 = EDGE_LOOP ( 'NONE', ( #32, #101 ) ) ;
#48 = ADVANCED_BREP_SHAPE_REPRESENTATION ( 'BK7-LNPBSP-12.7-532', ( #87, #7 ), #83 ) ;
#49 = DIRECTION ( 'NONE',  ( 0.000000000000000000, 0.000000000000000000, 1.000000000000000000 ) ) ;
#50 = EDGE_CURVE ( 'NONE', #162, #141, #115, .T. ) ;
#51 = CALENDAR_DATE ( 2020, 22, 12 ) ;
#52 = APPROVAL_PERSON_ORGANIZATION ( #19, #41, #20 ) ;
#53 = ORIENTED_EDGE ( 'NONE', *, *, #88, .T. ) ;
#54 = PLANE ( 'NONE',  #80 ) ;
#55 = DIRECTION ( 'NONE',  ( 0.000000000000000000, 0.000000000000000000, 1.000000000000000000 ) ) ;
#56 = APPROVAL_STATUS ( 'not_yet_approved' ) ;
#57 = CC_DESIGN_PERSON_AND_ORGANIZATION_ASSIGNMENT ( #118, #74, ( #24 ) ) ;
#58 =( LENGTH_UNIT ( ) NAMED_UNIT ( * ) SI_UNIT ( .MILLI., .METRE. ) );
#59 = ORGANIZATION ( 'UNSPECIFIED', 'UNSPECIFIED', '' ) ;
#60 = COORDINATED_UNIVERSAL_TIME_OFFSET ( 8, 0, .AHEAD. ) ;
#61 = CARTESIAN_POINT ( 'NONE',  ( 2.999999999999999112, 0.000000000000000000, 0.000000000000000000 ) ) ;
#62 = APPROVAL_DATE_TIME ( #35, #41 ) ;
#63 = DIRECTION ( 'NONE',  ( -1.000000000000000000, -0.000000000000000000, -0.000000000000000000 ) ) ;
#64 = AXIS2_PLACEMENT_3D ( 'NONE', #151, #154, #132 ) ;
#65 = CC_DESIGN_PERSON_AND_ORGANIZATION_ASSIGNMENT ( #135, #40, ( #127 ) ) ;
#66 =( NAMED_UNIT ( * ) SI_UNIT ( $, .STERADIAN. ) SOLID_ANGLE_UNIT ( ) );
#67 = DIRECTION ( 'NONE',  ( -0.000000000000000000, 0.000000000000000000, 1.000000000000000000 ) ) ;
#68 = PERSON_AND_ORGANIZATION ( #34, #59 ) ;
#69 = AXIS2_PLACEMENT_3D ( 'NONE', #79, #116, #91 ) ;
#70 = PERSON_AND_ORGANIZATION ( #34, #59 ) ;
#71 = APPROVAL ( #110, 'UNSPECIFIED' ) ;
#72 = DIRECTION ( 'NONE',  ( 0.000000000000000000, 0.000000000000000000, 1.000000000000000000 ) ) ;
#73 = EDGE_CURVE ( 'NONE', #5, #104, #130, .T. ) ;
#74 = PERSON_AND_ORGANIZATION_ROLE ( 'design_supplier' ) ;
#75 = VECTOR ( 'NONE', #23, 1000.000000000000000 ) ;
#76 = CALENDAR_DATE ( 2020, 22, 12 ) ;
#77 = CARTESIAN_POINT ( 'NONE',  ( 0.000000000000000000, 0.000000000000000000, 0.000000000000000000 ) ) ;
#78 = PERSON_AND_ORGANIZATION_ROLE ( 'design_owner' ) ;
#79 = CARTESIAN_POINT ( 'NONE',  ( -2.051283388571816641E-16, 6.349999999999999645, 0.000000000000000000 ) ) ;
#80 = AXIS2_PLACEMENT_3D ( 'NONE', #94, #105, #67 ) ;
#81 = APPROVAL_STATUS ( 'not_yet_approved' ) ;
#82 = PRODUCT_DEFINITION_SHAPE ( 'NONE', 'NONE',  #127 ) ;
#83 =( GEOMETRIC_REPRESENTATION_CONTEXT ( 3 ) GLOBAL_UNCERTAINTY_ASSIGNED_CONTEXT ( ( #17 ) ) GLOBAL_UNIT_ASSIGNED_CONTEXT ( ( #58, #99, #66 ) ) REPRESENTATION_CONTEXT ( 'NONE', 'WORKASPACE' ) );
#84 = ORIENTED_EDGE ( 'NONE', *, *, #171, .T. ) ;
#85 = ORIENTED_EDGE ( 'NONE', *, *, #6, .T. ) ;
#86 = CALENDAR_DATE ( 2020, 22, 12 ) ;
#87 = MANIFOLD_SOLID_BREP ( 'Ðý×', #175 ) ;
#88 = EDGE_CURVE ( 'NONE', #162, #5, #142, .T. ) ;
#89 = ORIENTED_EDGE ( 'NONE', *, *, #50, .T. ) ;
#90 = SECURITY_CLASSIFICATION_LEVEL ( 'unclassified' ) ;
#91 = DIRECTION ( 'NONE',  ( 0.000000000000000000, 0.000000000000000000, -1.000000000000000000 ) ) ;
#92 = ADVANCED_FACE ( 'NONE', ( #164 ), #131, .F. ) ;
#93 = AXIS2_PLACEMENT_3D ( 'NONE', #22, #167, #55 ) ;
#94 = CARTESIAN_POINT ( 'NONE',  ( 2.999999999999999556, 6.349999999999999645, 0.000000000000000000 ) ) ;
#95 = DIRECTION ( 'NONE',  ( -1.000000000000000000, -0.000000000000000000, -0.000000000000000000 ) ) ;
#96 = DIRECTION ( 'NONE',  ( 1.000000000000000000, 0.000000000000000000, 0.000000000000000000 ) ) ;
#97 = CALENDAR_DATE ( 2020, 22, 12 ) ;
#98 = CC_DESIGN_APPROVAL ( #41, ( #1 ) ) ;
#99 =( NAMED_UNIT ( * ) PLANE_ANGLE_UNIT ( ) SI_UNIT ( $, .RADIAN. ) );
#100 = AXIS2_PLACEMENT_3D ( 'NONE', #169, #42, #72 ) ;
#101 = ORIENTED_EDGE ( 'NONE', *, *, #88, .F. ) ;
#102 = CC_DESIGN_SECURITY_CLASSIFICATION ( #1, ( #24 ) ) ;
#103 = APPROVAL_DATE_TIME ( #10, #71 ) ;
#104 = VERTEX_POINT ( 'NONE', #13 ) ;
#105 = DIRECTION ( 'NONE',  ( -1.000000000000000000, 0.000000000000000000, -0.000000000000000000 ) ) ;
#106 = APPROVAL ( #81, 'UNSPECIFIED' ) ;
#107 = CARTESIAN_POINT ( 'NONE',  ( 2.999999999999999112, 7.776507174585692163E-16, -6.349999999999999645 ) ) ;
#108 = FACE_OUTER_BOUND ( 'NONE', #47, .T. ) ;
#109 = CARTESIAN_POINT ( 'NONE',  ( 0.000000000000000000, 7.776507174585692163E-16, -6.349999999999999645 ) ) ;
#110 = APPROVAL_STATUS ( 'not_yet_approved' ) ;
#111 = ORIENTED_EDGE ( 'NONE', *, *, #73, .T. ) ;
#112 = DIRECTION ( 'NONE',  ( -1.000000000000000000, -0.000000000000000000, -0.000000000000000000 ) ) ;
#113 = LOCAL_TIME ( 12, 11, 33.00000000000000000, #25 ) ;
#114 = ADVANCED_FACE ( 'NONE', ( #108 ), #54, .F. ) ;
#115 = LINE ( 'NONE', #109, #75 ) ;
#116 = DIRECTION ( 'NONE',  ( 1.000000000000000000, 0.000000000000000000, 0.000000000000000000 ) ) ;
#117 = FACE_OUTER_BOUND ( 'NONE', #125, .T. ) ;
#118 = PERSON_AND_ORGANIZATION ( #34, #59 ) ;
#119 = VECTOR ( 'NONE', #63, 1000.000000000000000 ) ;
#120 = CALENDAR_DATE ( 2020, 22, 12 ) ;
#121 = CC_DESIGN_DATE_AND_TIME_ASSIGNMENT ( #170, #15, ( #127 ) ) ;
#122 = APPLICATION_PROTOCOL_DEFINITION ( 'international standard', 'config_control_design', 1994, #134 ) ;
#123 = DATE_AND_TIME ( #120, #113 ) ;
#124 = CC_DESIGN_APPROVAL ( #71, ( #24 ) ) ;
#125 = EDGE_LOOP ( 'NONE', ( #33, #53, #111, #4 ) ) ;
#126 = CARTESIAN_POINT ( 'NONE',  ( 2.999999999999999112, 0.000000000000000000, 6.349999999999999645 ) ) ;
#127 = PRODUCT_DEFINITION ( 'UNKNOWN', '', #24, #155 ) ;
#128 = PERSON_AND_ORGANIZATION ( #34, #59 ) ;
#129 = DATE_TIME_ROLE ( 'classification_date' ) ;
#130 = LINE ( 'NONE', #39, #119 ) ;
#131 = PLANE ( 'NONE',  #69 ) ;
#132 = DIRECTION ( 'NONE',  ( 0.000000000000000000, 0.000000000000000000, 1.000000000000000000 ) ) ;
#133 = APPROVAL_ROLE ( '' ) ;
#134 = APPLICATION_CONTEXT ( 'configuration controlled 3d designs of mechanical parts and assemblies' ) ;
#135 = PERSON_AND_ORGANIZATION ( #34, #59 ) ;
#136 = MECHANICAL_CONTEXT ( 'NONE', #134, 'mechanical' ) ;
#137 = ADVANCED_FACE ( 'NONE', ( #148 ), #21, .T. ) ;
#138 = LOCAL_TIME ( 12, 11, 33.00000000000000000, #147 ) ;
#139 = PRODUCT_RELATED_PRODUCT_CATEGORY ( 'detail', '', ( #43 ) ) ;
#140 = ORIENTED_EDGE ( 'NONE', *, *, #73, .F. ) ;
#141 = VERTEX_POINT ( 'NONE', #166 ) ;
#142 = CIRCLE ( 'NONE', #100, 6.349999999999999645 ) ;
#143 = PERSON_AND_ORGANIZATION_ROLE ( 'creator' ) ;
#144 = ORIENTED_EDGE ( 'NONE', *, *, #26, .F. ) ;
#145 = DATE_AND_TIME ( #51, #138 ) ;
#146 = EDGE_LOOP ( 'NONE', ( #85, #89, #144, #140 ) ) ;
#147 = COORDINATED_UNIVERSAL_TIME_OFFSET ( 8, 0, .AHEAD. ) ;
#148 = FACE_OUTER_BOUND ( 'NONE', #146, .T. ) ;
#149 = AXIS2_PLACEMENT_3D ( 'NONE', #61, #112, #49 ) ;
#150 = PERSON_AND_ORGANIZATION ( #34, #59 ) ;
#151 = CARTESIAN_POINT ( 'NONE',  ( -4.102566777143633281E-16, 0.000000000000000000, 0.000000000000000000 ) ) ;
#152 = CYLINDRICAL_SURFACE ( 'NONE', #172, 6.349999999999999645 ) ;
#153 = APPROVAL_DATE_TIME ( #123, #106 ) ;
#154 = DIRECTION ( 'NONE',  ( -1.000000000000000000, -0.000000000000000000, -0.000000000000000000 ) ) ;
#155 = DESIGN_CONTEXT ( 'detailed design', #158, 'design' ) ;
#156 = APPROVAL_ROLE ( '' ) ;
#157 = AXIS2_PLACEMENT_3D ( 'NONE', #37, #95, #168 ) ;
#158 = APPLICATION_CONTEXT ( 'configuration controlled 3d designs of mechanical parts and assemblies' ) ;
#159 = APPROVAL_PERSON_ORGANIZATION ( #68, #71, #156 ) ;
#160 = EDGE_LOOP ( 'NONE', ( #173, #84 ) ) ;
#161 = CC_DESIGN_PERSON_AND_ORGANIZATION_ASSIGNMENT ( #128, #165, ( #1 ) ) ;
#162 = VERTEX_POINT ( 'NONE', #107 ) ;
#163 = COORDINATED_UNIVERSAL_TIME_OFFSET ( 8, 0, .AHEAD. ) ;
#164 = FACE_OUTER_BOUND ( 'NONE', #160, .T. ) ;
#165 = PERSON_AND_ORGANIZATION_ROLE ( 'classification_officer' ) ;
#166 = CARTESIAN_POINT ( 'NONE',  ( -4.102566777143633281E-16, 7.776507174585692163E-16, -6.349999999999999645 ) ) ;
#167 = DIRECTION ( 'NONE',  ( -1.000000000000000000, -0.000000000000000000, -0.000000000000000000 ) ) ;
#168 = DIRECTION ( 'NONE',  ( 0.000000000000000000, 0.000000000000000000, 1.000000000000000000 ) ) ;
#169 = CARTESIAN_POINT ( 'NONE',  ( 2.999999999999999112, 0.000000000000000000, 0.000000000000000000 ) ) ;
#170 = DATE_AND_TIME ( #97, #45 ) ;
#171 = EDGE_CURVE ( 'NONE', #141, #104, #18, .T. ) ;
#172 = AXIS2_PLACEMENT_3D ( 'NONE', #77, #9, #11 ) ;
#173 = ORIENTED_EDGE ( 'NONE', *, *, #26, .T. ) ;
#174 = CIRCLE ( 'NONE', #64, 6.349999999999999645 ) ;
#175 = CLOSED_SHELL ( 'NONE', ( #137, #46, #114, #92 ) ) ;
ENDSEC;
END-ISO-10303-21;
